ISO-10303-21;
HEADER;
FILE_DESCRIPTION(('CATIA V5 STEP Exchange'),'2;1');

FILE_NAME('I:\\\X2\CC28CCB4AD6CC870C2E4C2B5\X0\\\2016 NFX ppt\\Week3\\I_Beam.stp','2016-09-11T11:03:09+00:00',('none'),('none'),'CATIA Version 5-6 Release 2014 SP6','CATIA V5 STEP AP203','none');

FILE_SCHEMA(('CONFIG_CONTROL_DESIGN'));

ENDSEC;
DATA;
#5=PRODUCT('Part1','','',(#2)) ;
#1=APPLICATION_CONTEXT('configuration controlled 3D design of mechanical parts and assemblies') ;
#14=PRODUCT_DEFINITION('',' ',#6,#3) ;
#16=SECURITY_CLASSIFICATION(' ',' ',#15) ;
#15=SECURITY_CLASSIFICATION_LEVEL('unclassified') ;
#46=CARTESIAN_POINT(' ',(0.,0.,0.)) ;
#51=CARTESIAN_POINT('Axis2P3D Location',(0.,-127.5,178.5)) ;
#56=CARTESIAN_POINT('Line Origine',(2500.,-127.5,178.5)) ;
#60=CARTESIAN_POINT('Vertex',(0.,-127.5,178.5)) ;
#62=CARTESIAN_POINT('Vertex',(5000.,-127.5,178.5)) ;
#65=CARTESIAN_POINT('Line Origine',(0.,-127.5,169.35)) ;
#69=CARTESIAN_POINT('Vertex',(0.,-127.5,160.2)) ;
#72=CARTESIAN_POINT('Line Origine',(2500.,-127.5,160.2)) ;
#76=CARTESIAN_POINT('Vertex',(5000.,-127.5,160.2)) ;
#79=CARTESIAN_POINT('Line Origine',(5000.,-127.5,169.35)) ;
#91=CARTESIAN_POINT('Axis2P3D Location',(0.,-5.25,160.2)) ;
#96=CARTESIAN_POINT('Line Origine',(0.,-66.375,160.2)) ;
#100=CARTESIAN_POINT('Vertex',(0.,-5.25,160.2)) ;
#103=CARTESIAN_POINT('Line Origine',(2500.,-5.25,160.2)) ;
#107=CARTESIAN_POINT('Vertex',(5000.,-5.25,160.2)) ;
#110=CARTESIAN_POINT('Line Origine',(5000.,-66.375,160.2)) ;
#122=CARTESIAN_POINT('Axis2P3D Location',(0.,-5.25,-160.2)) ;
#127=CARTESIAN_POINT('Line Origine',(0.,-5.25,0.)) ;
#131=CARTESIAN_POINT('Vertex',(0.,-5.25,-160.2)) ;
#134=CARTESIAN_POINT('Line Origine',(2500.,-5.25,-160.2)) ;
#138=CARTESIAN_POINT('Vertex',(5000.,-5.25,-160.2)) ;
#141=CARTESIAN_POINT('Line Origine',(5000.,-5.25,0.)) ;
#153=CARTESIAN_POINT('Axis2P3D Location',(0.,-127.5,-160.2)) ;
#158=CARTESIAN_POINT('Line Origine',(0.,-66.375,-160.2)) ;
#162=CARTESIAN_POINT('Vertex',(0.,-127.5,-160.2)) ;
#165=CARTESIAN_POINT('Line Origine',(2500.,-127.5,-160.2)) ;
#169=CARTESIAN_POINT('Vertex',(5000.,-127.5,-160.2)) ;
#172=CARTESIAN_POINT('Line Origine',(5000.,-66.375,-160.2)) ;
#184=CARTESIAN_POINT('Line Origine',(0.,-127.5,-169.35)) ;
#188=CARTESIAN_POINT('Vertex',(0.,-127.5,-178.5)) ;
#191=CARTESIAN_POINT('Line Origine',(2500.,-127.5,-178.5)) ;
#195=CARTESIAN_POINT('Vertex',(5000.,-127.5,-178.5)) ;
#198=CARTESIAN_POINT('Line Origine',(5000.,-127.5,-169.35)) ;
#210=CARTESIAN_POINT('Axis2P3D Location',(0.,127.5,-178.5)) ;
#215=CARTESIAN_POINT('Line Origine',(0.,-2.84217094304E-014,-178.5)) ;
#219=CARTESIAN_POINT('Vertex',(0.,127.5,-178.5)) ;
#222=CARTESIAN_POINT('Line Origine',(2500.,127.5,-178.5)) ;
#226=CARTESIAN_POINT('Vertex',(5000.,127.5,-178.5)) ;
#229=CARTESIAN_POINT('Line Origine',(5000.,-2.84217094304E-014,-178.5)) ;
#241=CARTESIAN_POINT('Axis2P3D Location',(0.,127.5,-178.5)) ;
#246=CARTESIAN_POINT('Line Origine',(0.,127.5,-169.35)) ;
#250=CARTESIAN_POINT('Vertex',(0.,127.5,-160.2)) ;
#253=CARTESIAN_POINT('Line Origine',(2500.,127.5,-160.2)) ;
#257=CARTESIAN_POINT('Vertex',(5000.,127.5,-160.2)) ;
#260=CARTESIAN_POINT('Line Origine',(5000.,127.5,-169.35)) ;
#272=CARTESIAN_POINT('Line Origine',(0.,66.375,-160.2)) ;
#276=CARTESIAN_POINT('Vertex',(0.,5.25,-160.2)) ;
#279=CARTESIAN_POINT('Line Origine',(2500.,5.25,-160.2)) ;
#283=CARTESIAN_POINT('Vertex',(5000.,5.25,-160.2)) ;
#286=CARTESIAN_POINT('Line Origine',(5000.,66.375,-160.2)) ;
#298=CARTESIAN_POINT('Axis2P3D Location',(0.,5.25,-160.2)) ;
#303=CARTESIAN_POINT('Line Origine',(0.,5.25,0.)) ;
#307=CARTESIAN_POINT('Vertex',(0.,5.25,160.2)) ;
#310=CARTESIAN_POINT('Line Origine',(2500.,5.25,160.2)) ;
#314=CARTESIAN_POINT('Vertex',(5000.,5.25,160.2)) ;
#317=CARTESIAN_POINT('Line Origine',(5000.,5.25,0.)) ;
#329=CARTESIAN_POINT('Line Origine',(0.,66.375,160.2)) ;
#333=CARTESIAN_POINT('Vertex',(0.,127.5,160.2)) ;
#336=CARTESIAN_POINT('Line Origine',(2500.,127.5,160.2)) ;
#340=CARTESIAN_POINT('Vertex',(5000.,127.5,160.2)) ;
#343=CARTESIAN_POINT('Line Origine',(5000.,66.375,160.2)) ;
#355=CARTESIAN_POINT('Line Origine',(0.,127.5,169.35)) ;
#359=CARTESIAN_POINT('Vertex',(0.,127.5,178.5)) ;
#362=CARTESIAN_POINT('Line Origine',(2500.,127.5,178.5)) ;
#366=CARTESIAN_POINT('Vertex',(5000.,127.5,178.5)) ;
#369=CARTESIAN_POINT('Line Origine',(5000.,127.5,169.35)) ;
#381=CARTESIAN_POINT('Axis2P3D Location',(0.,-127.5,178.5)) ;
#386=CARTESIAN_POINT('Line Origine',(0.,-1.42108547152E-014,178.5)) ;
#391=CARTESIAN_POINT('Line Origine',(5000.,-1.42108547152E-014,178.5)) ;
#403=CARTESIAN_POINT('Axis2P3D Location',(0.,0.,0.)) ;
#423=CARTESIAN_POINT('Axis2P3D Location',(5000.,0.,0.)) ;
#446=CARTESIAN_POINT('Axis2P3D Location',(0.,0.,0.)) ;
#52=DIRECTION('Axis2P3D Direction',(0.,-1.,0.)) ;
#53=DIRECTION('Axis2P3D XDirection',(0.,0.,-1.)) ;
#57=DIRECTION('Vector Direction',(1.,0.,0.)) ;
#66=DIRECTION('Vector Direction',(0.,0.,-1.)) ;
#73=DIRECTION('Vector Direction',(1.,0.,0.)) ;
#80=DIRECTION('Vector Direction',(0.,0.,-1.)) ;
#92=DIRECTION('Axis2P3D Direction',(-0.,0.,1.)) ;
#93=DIRECTION('Axis2P3D XDirection',(0.,-1.,0.)) ;
#97=DIRECTION('Vector Direction',(0.,-1.,0.)) ;
#104=DIRECTION('Vector Direction',(1.,0.,0.)) ;
#111=DIRECTION('Vector Direction',(0.,-1.,0.)) ;
#123=DIRECTION('Axis2P3D Direction',(0.,1.,0.)) ;
#124=DIRECTION('Axis2P3D XDirection',(0.,0.,1.)) ;
#128=DIRECTION('Vector Direction',(0.,0.,1.)) ;
#135=DIRECTION('Vector Direction',(1.,0.,0.)) ;
#142=DIRECTION('Vector Direction',(0.,0.,1.)) ;
#154=DIRECTION('Axis2P3D Direction',(0.,0.,-1.)) ;
#155=DIRECTION('Axis2P3D XDirection',(0.,1.,0.)) ;
#159=DIRECTION('Vector Direction',(0.,1.,0.)) ;
#166=DIRECTION('Vector Direction',(1.,0.,0.)) ;
#173=DIRECTION('Vector Direction',(0.,1.,0.)) ;
#185=DIRECTION('Vector Direction',(0.,0.,-1.)) ;
#192=DIRECTION('Vector Direction',(1.,0.,0.)) ;
#199=DIRECTION('Vector Direction',(0.,0.,-1.)) ;
#211=DIRECTION('Axis2P3D Direction',(-0.,0.,1.)) ;
#212=DIRECTION('Axis2P3D XDirection',(0.,-1.,0.)) ;
#216=DIRECTION('Vector Direction',(0.,-1.,0.)) ;
#223=DIRECTION('Vector Direction',(1.,0.,0.)) ;
#230=DIRECTION('Vector Direction',(0.,-1.,0.)) ;
#242=DIRECTION('Axis2P3D Direction',(0.,1.,0.)) ;
#243=DIRECTION('Axis2P3D XDirection',(0.,0.,1.)) ;
#247=DIRECTION('Vector Direction',(0.,0.,1.)) ;
#254=DIRECTION('Vector Direction',(1.,0.,0.)) ;
#261=DIRECTION('Vector Direction',(0.,0.,1.)) ;
#273=DIRECTION('Vector Direction',(0.,-1.,0.)) ;
#280=DIRECTION('Vector Direction',(1.,0.,0.)) ;
#287=DIRECTION('Vector Direction',(0.,-1.,0.)) ;
#299=DIRECTION('Axis2P3D Direction',(0.,1.,0.)) ;
#300=DIRECTION('Axis2P3D XDirection',(0.,0.,1.)) ;
#304=DIRECTION('Vector Direction',(0.,0.,1.)) ;
#311=DIRECTION('Vector Direction',(1.,0.,0.)) ;
#318=DIRECTION('Vector Direction',(0.,0.,1.)) ;
#330=DIRECTION('Vector Direction',(0.,1.,0.)) ;
#337=DIRECTION('Vector Direction',(1.,0.,0.)) ;
#344=DIRECTION('Vector Direction',(0.,1.,0.)) ;
#356=DIRECTION('Vector Direction',(0.,0.,1.)) ;
#363=DIRECTION('Vector Direction',(1.,0.,0.)) ;
#370=DIRECTION('Vector Direction',(0.,0.,1.)) ;
#382=DIRECTION('Axis2P3D Direction',(0.,0.,-1.)) ;
#383=DIRECTION('Axis2P3D XDirection',(0.,1.,0.)) ;
#387=DIRECTION('Vector Direction',(0.,1.,0.)) ;
#392=DIRECTION('Vector Direction',(0.,1.,0.)) ;
#404=DIRECTION('Axis2P3D Direction',(1.,0.,0.)) ;
#405=DIRECTION('Axis2P3D XDirection',(0.,1.,0.)) ;
#424=DIRECTION('Axis2P3D Direction',(1.,0.,0.)) ;
#425=DIRECTION('Axis2P3D XDirection',(0.,1.,0.)) ;
#447=DIRECTION('Axis2P3D Direction',(0.,0.,1.)) ;
#448=DIRECTION('Axis2P3D XDirection',(1.,0.,0.)) ;
#47=AXIS2_PLACEMENT_3D(' ',#46,$,$) ;
#54=AXIS2_PLACEMENT_3D('Plane Axis2P3D',#51,#52,#53) ;
#94=AXIS2_PLACEMENT_3D('Plane Axis2P3D',#91,#92,#93) ;
#125=AXIS2_PLACEMENT_3D('Plane Axis2P3D',#122,#123,#124) ;
#156=AXIS2_PLACEMENT_3D('Plane Axis2P3D',#153,#154,#155) ;
#213=AXIS2_PLACEMENT_3D('Plane Axis2P3D',#210,#211,#212) ;
#244=AXIS2_PLACEMENT_3D('Plane Axis2P3D',#241,#242,#243) ;
#301=AXIS2_PLACEMENT_3D('Plane Axis2P3D',#298,#299,#300) ;
#384=AXIS2_PLACEMENT_3D('Plane Axis2P3D',#381,#382,#383) ;
#406=AXIS2_PLACEMENT_3D('Plane Axis2P3D',#403,#404,#405) ;
#426=AXIS2_PLACEMENT_3D('Plane Axis2P3D',#423,#424,#425) ;
#449=AXIS2_PLACEMENT_3D('Absolute Axis System',#446,#447,#448) ;
#40=PRODUCT_DEFINITION_SHAPE(' ',' ',#14) ;
#31=APPROVAL_PERSON_ORGANIZATION(#25,#21,#19) ;
#25=PERSON_AND_ORGANIZATION(#22,#23) ;
#22=PERSON(' ',' ',' ',$,$,$) ;
#23=ORGANIZATION(' ',' ',' ') ;
#21=APPROVAL(#20,' ') ;
#20=APPROVAL_STATUS('not_yet_approved') ;
#19=APPROVAL_ROLE('APPROVER') ;
#13=DATE_AND_TIME(#11,#12) ;
#12=LOCAL_TIME(20,3,8.,#10) ;
#10=COORDINATED_UNIVERSAL_TIME_OFFSET(0,0,.AHEAD.) ;
#85=ORIENTED_EDGE('',*,*,#64,.F.) ;
#86=ORIENTED_EDGE('',*,*,#71,.T.) ;
#87=ORIENTED_EDGE('',*,*,#78,.T.) ;
#88=ORIENTED_EDGE('',*,*,#83,.F.) ;
#116=ORIENTED_EDGE('',*,*,#78,.F.) ;
#117=ORIENTED_EDGE('',*,*,#102,.T.) ;
#118=ORIENTED_EDGE('',*,*,#109,.T.) ;
#119=ORIENTED_EDGE('',*,*,#114,.F.) ;
#147=ORIENTED_EDGE('',*,*,#109,.F.) ;
#148=ORIENTED_EDGE('',*,*,#133,.T.) ;
#149=ORIENTED_EDGE('',*,*,#140,.T.) ;
#150=ORIENTED_EDGE('',*,*,#145,.F.) ;
#178=ORIENTED_EDGE('',*,*,#140,.F.) ;
#179=ORIENTED_EDGE('',*,*,#164,.T.) ;
#180=ORIENTED_EDGE('',*,*,#171,.T.) ;
#181=ORIENTED_EDGE('',*,*,#176,.F.) ;
#204=ORIENTED_EDGE('',*,*,#171,.F.) ;
#205=ORIENTED_EDGE('',*,*,#190,.T.) ;
#206=ORIENTED_EDGE('',*,*,#197,.T.) ;
#207=ORIENTED_EDGE('',*,*,#202,.F.) ;
#235=ORIENTED_EDGE('',*,*,#197,.F.) ;
#236=ORIENTED_EDGE('',*,*,#221,.T.) ;
#237=ORIENTED_EDGE('',*,*,#228,.T.) ;
#238=ORIENTED_EDGE('',*,*,#233,.F.) ;
#266=ORIENTED_EDGE('',*,*,#228,.F.) ;
#267=ORIENTED_EDGE('',*,*,#252,.T.) ;
#268=ORIENTED_EDGE('',*,*,#259,.T.) ;
#269=ORIENTED_EDGE('',*,*,#264,.F.) ;
#292=ORIENTED_EDGE('',*,*,#259,.F.) ;
#293=ORIENTED_EDGE('',*,*,#278,.T.) ;
#294=ORIENTED_EDGE('',*,*,#285,.T.) ;
#295=ORIENTED_EDGE('',*,*,#290,.F.) ;
#323=ORIENTED_EDGE('',*,*,#285,.F.) ;
#324=ORIENTED_EDGE('',*,*,#309,.T.) ;
#325=ORIENTED_EDGE('',*,*,#316,.T.) ;
#326=ORIENTED_EDGE('',*,*,#321,.F.) ;
#349=ORIENTED_EDGE('',*,*,#316,.F.) ;
#350=ORIENTED_EDGE('',*,*,#335,.T.) ;
#351=ORIENTED_EDGE('',*,*,#342,.T.) ;
#352=ORIENTED_EDGE('',*,*,#347,.F.) ;
#375=ORIENTED_EDGE('',*,*,#342,.F.) ;
#376=ORIENTED_EDGE('',*,*,#361,.T.) ;
#377=ORIENTED_EDGE('',*,*,#368,.T.) ;
#378=ORIENTED_EDGE('',*,*,#373,.F.) ;
#397=ORIENTED_EDGE('',*,*,#368,.F.) ;
#398=ORIENTED_EDGE('',*,*,#390,.T.) ;
#399=ORIENTED_EDGE('',*,*,#64,.T.) ;
#400=ORIENTED_EDGE('',*,*,#395,.F.) ;
#409=ORIENTED_EDGE('',*,*,#390,.F.) ;
#410=ORIENTED_EDGE('',*,*,#361,.F.) ;
#411=ORIENTED_EDGE('',*,*,#335,.F.) ;
#412=ORIENTED_EDGE('',*,*,#309,.F.) ;
#413=ORIENTED_EDGE('',*,*,#278,.F.) ;
#414=ORIENTED_EDGE('',*,*,#252,.F.) ;
#415=ORIENTED_EDGE('',*,*,#221,.F.) ;
#416=ORIENTED_EDGE('',*,*,#190,.F.) ;
#417=ORIENTED_EDGE('',*,*,#164,.F.) ;
#418=ORIENTED_EDGE('',*,*,#133,.F.) ;
#419=ORIENTED_EDGE('',*,*,#102,.F.) ;
#420=ORIENTED_EDGE('',*,*,#71,.F.) ;
#429=ORIENTED_EDGE('',*,*,#83,.T.) ;
#430=ORIENTED_EDGE('',*,*,#114,.T.) ;
#431=ORIENTED_EDGE('',*,*,#145,.T.) ;
#432=ORIENTED_EDGE('',*,*,#176,.T.) ;
#433=ORIENTED_EDGE('',*,*,#202,.T.) ;
#434=ORIENTED_EDGE('',*,*,#233,.T.) ;
#435=ORIENTED_EDGE('',*,*,#264,.T.) ;
#436=ORIENTED_EDGE('',*,*,#290,.T.) ;
#437=ORIENTED_EDGE('',*,*,#321,.T.) ;
#438=ORIENTED_EDGE('',*,*,#347,.T.) ;
#439=ORIENTED_EDGE('',*,*,#373,.T.) ;
#440=ORIENTED_EDGE('',*,*,#395,.T.) ;
#50=CLOSED_SHELL('Closed Shell',(#90,#121,#152,#183,#209,#240,#271,#297,#328,#354,#380,#402,#422,#442)) ;
#58=VECTOR('Line Direction',#57,1.) ;
#67=VECTOR('Line Direction',#66,1.) ;
#74=VECTOR('Line Direction',#73,1.) ;
#81=VECTOR('Line Direction',#80,1.) ;
#98=VECTOR('Line Direction',#97,1.) ;
#105=VECTOR('Line Direction',#104,1.) ;
#112=VECTOR('Line Direction',#111,1.) ;
#129=VECTOR('Line Direction',#128,1.) ;
#136=VECTOR('Line Direction',#135,1.) ;
#143=VECTOR('Line Direction',#142,1.) ;
#160=VECTOR('Line Direction',#159,1.) ;
#167=VECTOR('Line Direction',#166,1.) ;
#174=VECTOR('Line Direction',#173,1.) ;
#186=VECTOR('Line Direction',#185,1.) ;
#193=VECTOR('Line Direction',#192,1.) ;
#200=VECTOR('Line Direction',#199,1.) ;
#217=VECTOR('Line Direction',#216,1.) ;
#224=VECTOR('Line Direction',#223,1.) ;
#231=VECTOR('Line Direction',#230,1.) ;
#248=VECTOR('Line Direction',#247,1.) ;
#255=VECTOR('Line Direction',#254,1.) ;
#262=VECTOR('Line Direction',#261,1.) ;
#274=VECTOR('Line Direction',#273,1.) ;
#281=VECTOR('Line Direction',#280,1.) ;
#288=VECTOR('Line Direction',#287,1.) ;
#305=VECTOR('Line Direction',#304,1.) ;
#312=VECTOR('Line Direction',#311,1.) ;
#319=VECTOR('Line Direction',#318,1.) ;
#331=VECTOR('Line Direction',#330,1.) ;
#338=VECTOR('Line Direction',#337,1.) ;
#345=VECTOR('Line Direction',#344,1.) ;
#357=VECTOR('Line Direction',#356,1.) ;
#364=VECTOR('Line Direction',#363,1.) ;
#371=VECTOR('Line Direction',#370,1.) ;
#388=VECTOR('Line Direction',#387,1.) ;
#393=VECTOR('Line Direction',#392,1.) ;
#444=ADVANCED_BREP_SHAPE_REPRESENTATION('NONE',(#443),#45) ;
#48=SHAPE_REPRESENTATION(' ',(#47),#45) ;
#90=ADVANCED_FACE('PartBody',(#89),#55,.T.) ;
#121=ADVANCED_FACE('PartBody',(#120),#95,.F.) ;
#152=ADVANCED_FACE('PartBody',(#151),#126,.F.) ;
#183=ADVANCED_FACE('PartBody',(#182),#157,.F.) ;
#209=ADVANCED_FACE('PartBody',(#208),#55,.T.) ;
#240=ADVANCED_FACE('PartBody',(#239),#214,.F.) ;
#271=ADVANCED_FACE('PartBody',(#270),#245,.T.) ;
#297=ADVANCED_FACE('PartBody',(#296),#157,.F.) ;
#328=ADVANCED_FACE('PartBody',(#327),#302,.T.) ;
#354=ADVANCED_FACE('PartBody',(#353),#95,.F.) ;
#380=ADVANCED_FACE('PartBody',(#379),#245,.T.) ;
#402=ADVANCED_FACE('PartBody',(#401),#385,.F.) ;
#422=ADVANCED_FACE('PartBody',(#421),#407,.F.) ;
#442=ADVANCED_FACE('PartBody',(#441),#427,.T.) ;
#4=APPLICATION_PROTOCOL_DEFINITION('international standard','config_control_design',1994,#1) ;
#32=APPROVAL_DATE_TIME(#13,#21) ;
#443=MANIFOLD_SOLID_BREP('PartBody',#50) ;
#11=CALENDAR_DATE(2016,11,9) ;
#30=CC_DESIGN_APPROVAL(#21,(#16,#6,#14)) ;
#18=CC_DESIGN_DATE_AND_TIME_ASSIGNMENT(#13,#17,(#16)) ;
#29=CC_DESIGN_DATE_AND_TIME_ASSIGNMENT(#13,#28,(#14)) ;
#17=DATE_TIME_ROLE('classification_date') ;
#28=DATE_TIME_ROLE('creation_date') ;
#27=CC_DESIGN_PERSON_AND_ORGANIZATION_ASSIGNMENT(#25,#26,(#16)) ;
#33=CC_DESIGN_PERSON_AND_ORGANIZATION_ASSIGNMENT(#25,#34,(#6)) ;
#35=CC_DESIGN_PERSON_AND_ORGANIZATION_ASSIGNMENT(#25,#36,(#6,#14)) ;
#37=CC_DESIGN_PERSON_AND_ORGANIZATION_ASSIGNMENT(#25,#38,(#5)) ;
#26=PERSON_AND_ORGANIZATION_ROLE('classification_officer') ;
#34=PERSON_AND_ORGANIZATION_ROLE('design_supplier') ;
#36=PERSON_AND_ORGANIZATION_ROLE('creator') ;
#38=PERSON_AND_ORGANIZATION_ROLE('design_owner') ;
#39=CC_DESIGN_SECURITY_CLASSIFICATION(#16,(#6)) ;
#445=SHAPE_REPRESENTATION_RELATIONSHIP(' ',' ',#48,#444) ;
#3=DESIGN_CONTEXT(' ',#1,'design') ;
#64=EDGE_CURVE('',#61,#63,#59,.T.) ;
#71=EDGE_CURVE('',#61,#70,#68,.T.) ;
#78=EDGE_CURVE('',#70,#77,#75,.T.) ;
#83=EDGE_CURVE('',#63,#77,#82,.T.) ;
#102=EDGE_CURVE('',#70,#101,#99,.F.) ;
#109=EDGE_CURVE('',#101,#108,#106,.T.) ;
#114=EDGE_CURVE('',#77,#108,#113,.F.) ;
#133=EDGE_CURVE('',#101,#132,#130,.F.) ;
#140=EDGE_CURVE('',#132,#139,#137,.T.) ;
#145=EDGE_CURVE('',#108,#139,#144,.F.) ;
#164=EDGE_CURVE('',#132,#163,#161,.F.) ;
#171=EDGE_CURVE('',#163,#170,#168,.T.) ;
#176=EDGE_CURVE('',#139,#170,#175,.F.) ;
#190=EDGE_CURVE('',#163,#189,#187,.T.) ;
#197=EDGE_CURVE('',#189,#196,#194,.T.) ;
#202=EDGE_CURVE('',#170,#196,#201,.T.) ;
#221=EDGE_CURVE('',#189,#220,#218,.F.) ;
#228=EDGE_CURVE('',#220,#227,#225,.T.) ;
#233=EDGE_CURVE('',#196,#227,#232,.F.) ;
#252=EDGE_CURVE('',#220,#251,#249,.T.) ;
#259=EDGE_CURVE('',#251,#258,#256,.T.) ;
#264=EDGE_CURVE('',#227,#258,#263,.T.) ;
#278=EDGE_CURVE('',#251,#277,#275,.T.) ;
#285=EDGE_CURVE('',#277,#284,#282,.T.) ;
#290=EDGE_CURVE('',#258,#284,#289,.T.) ;
#309=EDGE_CURVE('',#277,#308,#306,.T.) ;
#316=EDGE_CURVE('',#308,#315,#313,.T.) ;
#321=EDGE_CURVE('',#284,#315,#320,.T.) ;
#335=EDGE_CURVE('',#308,#334,#332,.T.) ;
#342=EDGE_CURVE('',#334,#341,#339,.T.) ;
#347=EDGE_CURVE('',#315,#341,#346,.T.) ;
#361=EDGE_CURVE('',#334,#360,#358,.T.) ;
#368=EDGE_CURVE('',#360,#367,#365,.T.) ;
#373=EDGE_CURVE('',#341,#367,#372,.T.) ;
#390=EDGE_CURVE('',#360,#61,#389,.F.) ;
#395=EDGE_CURVE('',#367,#63,#394,.F.) ;
#84=EDGE_LOOP('',(#85,#86,#87,#88)) ;
#115=EDGE_LOOP('',(#116,#117,#118,#119)) ;
#146=EDGE_LOOP('',(#147,#148,#149,#150)) ;
#177=EDGE_LOOP('',(#178,#179,#180,#181)) ;
#203=EDGE_LOOP('',(#204,#205,#206,#207)) ;
#234=EDGE_LOOP('',(#235,#236,#237,#238)) ;
#265=EDGE_LOOP('',(#266,#267,#268,#269)) ;
#291=EDGE_LOOP('',(#292,#293,#294,#295)) ;
#322=EDGE_LOOP('',(#323,#324,#325,#326)) ;
#348=EDGE_LOOP('',(#349,#350,#351,#352)) ;
#374=EDGE_LOOP('',(#375,#376,#377,#378)) ;
#396=EDGE_LOOP('',(#397,#398,#399,#400)) ;
#408=EDGE_LOOP('',(#409,#410,#411,#412,#413,#414,#415,#416,#417,#418,#419,#420)) ;
#428=EDGE_LOOP('',(#429,#430,#431,#432,#433,#434,#435,#436,#437,#438,#439,#440)) ;
#89=FACE_OUTER_BOUND('',#84,.T.) ;
#120=FACE_OUTER_BOUND('',#115,.T.) ;
#151=FACE_OUTER_BOUND('',#146,.T.) ;
#182=FACE_OUTER_BOUND('',#177,.T.) ;
#208=FACE_OUTER_BOUND('',#203,.T.) ;
#239=FACE_OUTER_BOUND('',#234,.T.) ;
#270=FACE_OUTER_BOUND('',#265,.T.) ;
#296=FACE_OUTER_BOUND('',#291,.T.) ;
#327=FACE_OUTER_BOUND('',#322,.T.) ;
#353=FACE_OUTER_BOUND('',#348,.T.) ;
#379=FACE_OUTER_BOUND('',#374,.T.) ;
#401=FACE_OUTER_BOUND('',#396,.T.) ;
#421=FACE_OUTER_BOUND('',#408,.T.) ;
#441=FACE_OUTER_BOUND('',#428,.T.) ;
#44=UNCERTAINTY_MEASURE_WITH_UNIT(LENGTH_MEASURE(0.005),#41,'distance_accuracy_value','CONFUSED CURVE UNCERTAINTY') ;
#59=LINE('Line',#56,#58) ;
#68=LINE('Line',#65,#67) ;
#75=LINE('Line',#72,#74) ;
#82=LINE('Line',#79,#81) ;
#99=LINE('Line',#96,#98) ;
#106=LINE('Line',#103,#105) ;
#113=LINE('Line',#110,#112) ;
#130=LINE('Line',#127,#129) ;
#137=LINE('Line',#134,#136) ;
#144=LINE('Line',#141,#143) ;
#161=LINE('Line',#158,#160) ;
#168=LINE('Line',#165,#167) ;
#175=LINE('Line',#172,#174) ;
#187=LINE('Line',#184,#186) ;
#194=LINE('Line',#191,#193) ;
#201=LINE('Line',#198,#200) ;
#218=LINE('Line',#215,#217) ;
#225=LINE('Line',#222,#224) ;
#232=LINE('Line',#229,#231) ;
#249=LINE('Line',#246,#248) ;
#256=LINE('Line',#253,#255) ;
#263=LINE('Line',#260,#262) ;
#275=LINE('Line',#272,#274) ;
#282=LINE('Line',#279,#281) ;
#289=LINE('Line',#286,#288) ;
#306=LINE('Line',#303,#305) ;
#313=LINE('Line',#310,#312) ;
#320=LINE('Line',#317,#319) ;
#332=LINE('Line',#329,#331) ;
#339=LINE('Line',#336,#338) ;
#346=LINE('Line',#343,#345) ;
#358=LINE('Line',#355,#357) ;
#365=LINE('Line',#362,#364) ;
#372=LINE('Line',#369,#371) ;
#389=LINE('Line',#386,#388) ;
#394=LINE('Line',#391,#393) ;
#2=MECHANICAL_CONTEXT(' ',#1,'mechanical') ;
#24=PERSONAL_ADDRESS(' ',' ',' ',' ',' ',' ',' ',' ',' ',' ',' ',' ',(#22),' ') ;
#55=PLANE('',#54) ;
#95=PLANE('',#94) ;
#126=PLANE('',#125) ;
#157=PLANE('',#156) ;
#214=PLANE('',#213) ;
#245=PLANE('',#244) ;
#302=PLANE('',#301) ;
#385=PLANE('',#384) ;
#407=PLANE('',#406) ;
#427=PLANE('',#426) ;
#7=PRODUCT_CATEGORY('part',$) ;
#9=PRODUCT_CATEGORY_RELATIONSHIP(' ',' ',#7,#8) ;
#6=PRODUCT_DEFINITION_FORMATION_WITH_SPECIFIED_SOURCE('',' ',#5,.NOT_KNOWN.) ;
#8=PRODUCT_RELATED_PRODUCT_CATEGORY('detail',$,(#5)) ;
#49=SHAPE_DEFINITION_REPRESENTATION(#40,#48) ;
#61=VERTEX_POINT('',#60) ;
#63=VERTEX_POINT('',#62) ;
#70=VERTEX_POINT('',#69) ;
#77=VERTEX_POINT('',#76) ;
#101=VERTEX_POINT('',#100) ;
#108=VERTEX_POINT('',#107) ;
#132=VERTEX_POINT('',#131) ;
#139=VERTEX_POINT('',#138) ;
#163=VERTEX_POINT('',#162) ;
#170=VERTEX_POINT('',#169) ;
#189=VERTEX_POINT('',#188) ;
#196=VERTEX_POINT('',#195) ;
#220=VERTEX_POINT('',#219) ;
#227=VERTEX_POINT('',#226) ;
#251=VERTEX_POINT('',#250) ;
#258=VERTEX_POINT('',#257) ;
#277=VERTEX_POINT('',#276) ;
#284=VERTEX_POINT('',#283) ;
#308=VERTEX_POINT('',#307) ;
#315=VERTEX_POINT('',#314) ;
#334=VERTEX_POINT('',#333) ;
#341=VERTEX_POINT('',#340) ;
#360=VERTEX_POINT('',#359) ;
#367=VERTEX_POINT('',#366) ;
#41=(LENGTH_UNIT()NAMED_UNIT(*)SI_UNIT(.MILLI.,.METRE.)) ;
#42=(NAMED_UNIT(*)PLANE_ANGLE_UNIT()SI_UNIT($,.RADIAN.)) ;
#43=(NAMED_UNIT(*)SI_UNIT($,.STERADIAN.)SOLID_ANGLE_UNIT()) ;
#45=(GEOMETRIC_REPRESENTATION_CONTEXT(3)GLOBAL_UNCERTAINTY_ASSIGNED_CONTEXT((#44))GLOBAL_UNIT_ASSIGNED_CONTEXT((#41,#42,#43))REPRESENTATION_CONTEXT(' ',' ')) ;
ENDSEC;
END-ISO-10303-21;
