ISO-10303-21;
HEADER;
FILE_DESCRIPTION(('CATIA V5 STEP Exchange'),'2;1');

FILE_NAME('I:\\\X2\CC28CCB4AD6CC870C2E4C2B5\X0\\\2016 NFX ppt\\Week2\\le10.stp','2016-09-12T13:54:11+00:00',('none'),('none'),'CATIA Version 5-6 Release 2014 SP6','CATIA V5 STEP AP203','none');

FILE_SCHEMA(('CONFIG_CONTROL_DESIGN'));

ENDSEC;
DATA;
#5=PRODUCT('Part1','','',(#2)) ;
#1=APPLICATION_CONTEXT('configuration controlled 3D design of mechanical parts and assemblies') ;
#14=PRODUCT_DEFINITION('',' ',#6,#3) ;
#16=SECURITY_CLASSIFICATION(' ',' ',#15) ;
#15=SECURITY_CLASSIFICATION_LEVEL('unclassified') ;
#46=CARTESIAN_POINT(' ',(0.,0.,0.)) ;
#51=CARTESIAN_POINT('Axis2P3D Location',(2000.,0.,0.)) ;
#56=CARTESIAN_POINT('Line Origine',(2000.,0.,300.)) ;
#60=CARTESIAN_POINT('Vertex',(2000.,0.,0.)) ;
#62=CARTESIAN_POINT('Vertex',(2000.,0.,600.)) ;
#65=CARTESIAN_POINT('Line Origine',(2625.,0.,0.)) ;
#69=CARTESIAN_POINT('Vertex',(3250.,0.,0.)) ;
#72=CARTESIAN_POINT('Line Origine',(3250.,0.,300.)) ;
#76=CARTESIAN_POINT('Vertex',(3250.,0.,600.)) ;
#79=CARTESIAN_POINT('Line Origine',(2625.,0.,600.)) ;
#91=CARTESIAN_POINT('Axis2P3D Location',(0.,0.,0.)) ;
#100=CARTESIAN_POINT('Control Point',(3250.,0.,0.)) ;
#101=CARTESIAN_POINT('Control Point',(3250.,215.984494934,0.)) ;
#102=CARTESIAN_POINT('Control Point',(3224.94045758,431.968989869,0.)) ;
#103=CARTESIAN_POINT('Control Point',(3174.81974453,645.177623755,0.)) ;
#104=CARTESIAN_POINT('Control Point',(3025.760479,1060.49394583,0.)) ;
#105=CARTESIAN_POINT('Control Point',(2784.09322011,1443.35224059,0.)) ;
#106=CARTESIAN_POINT('Control Point',(2641.3615052,1624.10179271,0.)) ;
#107=CARTESIAN_POINT('Control Point',(2315.81681124,1959.53730182,0.)) ;
#108=CARTESIAN_POINT('Control Point',(1919.39302775,2234.99819671,0.)) ;
#109=CARTESIAN_POINT('Control Point',(1705.7799207,2355.77118625,0.)) ;
#110=CARTESIAN_POINT('Control Point',(1253.3110269,2560.25886685,0.)) ;
#111=CARTESIAN_POINT('Control Point',(762.482646255,2686.38593768,0.)) ;
#112=CARTESIAN_POINT('Control Point',(510.508806208,2728.79577179,0.)) ;
#113=CARTESIAN_POINT('Control Point',(255.254403104,2750.,0.)) ;
#114=CARTESIAN_POINT('Control Point',(3.41060513165E-013,2750.,0.)) ;
#115=CARTESIAN_POINT('Vertex',(1.99005104861E-013,2750.,0.)) ;
#118=CARTESIAN_POINT('Line Origine',(1.99005104861E-013,2750.,300.)) ;
#122=CARTESIAN_POINT('Vertex',(1.99005104861E-013,2750.,600.)) ;
#126=CARTESIAN_POINT('Control Point',(3250.,0.,600.)) ;
#127=CARTESIAN_POINT('Control Point',(3250.,215.984494934,600.)) ;
#128=CARTESIAN_POINT('Control Point',(3224.94045758,431.968989869,600.)) ;
#129=CARTESIAN_POINT('Control Point',(3174.81974453,645.177623755,600.)) ;
#130=CARTESIAN_POINT('Control Point',(3025.760479,1060.49394583,600.)) ;
#131=CARTESIAN_POINT('Control Point',(2784.09322011,1443.35224059,600.)) ;
#132=CARTESIAN_POINT('Control Point',(2641.3615052,1624.10179271,600.)) ;
#133=CARTESIAN_POINT('Control Point',(2315.81681124,1959.53730182,600.)) ;
#134=CARTESIAN_POINT('Control Point',(1919.39302775,2234.99819671,600.)) ;
#135=CARTESIAN_POINT('Control Point',(1705.7799207,2355.77118625,600.)) ;
#136=CARTESIAN_POINT('Control Point',(1253.3110269,2560.25886685,600.)) ;
#137=CARTESIAN_POINT('Control Point',(762.482646255,2686.38593768,600.)) ;
#138=CARTESIAN_POINT('Control Point',(510.508806208,2728.79577179,600.)) ;
#139=CARTESIAN_POINT('Control Point',(255.254403104,2750.,600.)) ;
#140=CARTESIAN_POINT('Control Point',(3.41060513165E-013,2750.,600.)) ;
#149=CARTESIAN_POINT('Axis2P3D Location',(0.,1000.,0.)) ;
#154=CARTESIAN_POINT('Line Origine',(0.,1875.,0.)) ;
#158=CARTESIAN_POINT('Vertex',(0.,1000.,0.)) ;
#161=CARTESIAN_POINT('Line Origine',(0.,1000.,300.)) ;
#165=CARTESIAN_POINT('Vertex',(0.,1000.,600.)) ;
#168=CARTESIAN_POINT('Line Origine',(0.,1875.,600.)) ;
#180=CARTESIAN_POINT('Axis2P3D Location',(0.,0.,0.)) ;
#189=CARTESIAN_POINT('Control Point',(2000.,0.,0.)) ;
#190=CARTESIAN_POINT('Control Point',(2000.,78.5398163397,0.)) ;
#191=CARTESIAN_POINT('Control Point',(1984.57874312,157.079632679,0.)) ;
#192=CARTESIAN_POINT('Control Point',(1953.73522741,234.610045002,0.)) ;
#193=CARTESIAN_POINT('Control Point',(1862.00644862,385.634162122,0.)) ;
#194=CARTESIAN_POINT('Control Point',(1713.28813545,524.855360216,0.)) ;
#195=CARTESIAN_POINT('Control Point',(1625.45323397,590.582470077,0.)) ;
#196=CARTESIAN_POINT('Control Point',(1425.11803769,712.559018843,0.)) ;
#197=CARTESIAN_POINT('Control Point',(1181.16494015,812.726616985,0.)) ;
#198=CARTESIAN_POINT('Control Point',(1049.71072043,856.644067726,0.)) ;
#199=CARTESIAN_POINT('Control Point',(771.268324243,931.003224308,0.)) ;
#200=CARTESIAN_POINT('Control Point',(469.220090003,976.867613703,0.)) ;
#201=CARTESIAN_POINT('Control Point',(314.159265359,992.289371562,0.)) ;
#202=CARTESIAN_POINT('Control Point',(157.079632679,1000.,0.)) ;
#203=CARTESIAN_POINT('Control Point',(1.13686837722E-013,1000.,0.)) ;
#206=CARTESIAN_POINT('Control Point',(2000.,0.,600.)) ;
#207=CARTESIAN_POINT('Control Point',(2000.,78.5398163397,600.)) ;
#208=CARTESIAN_POINT('Control Point',(1984.57874312,157.079632679,600.)) ;
#209=CARTESIAN_POINT('Control Point',(1953.73522741,234.610045002,600.)) ;
#210=CARTESIAN_POINT('Control Point',(1862.00644862,385.634162122,600.)) ;
#211=CARTESIAN_POINT('Control Point',(1713.28813545,524.855360216,600.)) ;
#212=CARTESIAN_POINT('Control Point',(1625.45323397,590.582470077,600.)) ;
#213=CARTESIAN_POINT('Control Point',(1425.11803769,712.559018843,600.)) ;
#214=CARTESIAN_POINT('Control Point',(1181.16494015,812.726616985,600.)) ;
#215=CARTESIAN_POINT('Control Point',(1049.71072043,856.644067726,600.)) ;
#216=CARTESIAN_POINT('Control Point',(771.268324243,931.003224308,600.)) ;
#217=CARTESIAN_POINT('Control Point',(469.220090003,976.867613703,600.)) ;
#218=CARTESIAN_POINT('Control Point',(314.159265359,992.289371562,600.)) ;
#219=CARTESIAN_POINT('Control Point',(157.079632679,1000.,600.)) ;
#220=CARTESIAN_POINT('Control Point',(1.13686837722E-013,1000.,600.)) ;
#229=CARTESIAN_POINT('Axis2P3D Location',(0.,0.,0.)) ;
#241=CARTESIAN_POINT('Axis2P3D Location',(0.,0.,600.)) ;
#256=CARTESIAN_POINT('Axis2P3D Location',(0.,0.,0.)) ;
#52=DIRECTION('Axis2P3D Direction',(0.,-1.,0.)) ;
#53=DIRECTION('Axis2P3D XDirection',(1.,0.,0.)) ;
#57=DIRECTION('Vector Direction',(0.,0.,1.)) ;
#66=DIRECTION('Vector Direction',(1.,0.,0.)) ;
#73=DIRECTION('Vector Direction',(0.,0.,1.)) ;
#80=DIRECTION('Vector Direction',(1.,0.,0.)) ;
#92=DIRECTION('Axis2P3D Direction',(0.,0.,1.)) ;
#93=DIRECTION('Axis2P3D XDirection',(1.,0.,0.)) ;
#96=DIRECTION('Vector Direction',(0.,0.,1.)) ;
#119=DIRECTION('Vector Direction',(0.,0.,1.)) ;
#150=DIRECTION('Axis2P3D Direction',(1.,0.,0.)) ;
#151=DIRECTION('Axis2P3D XDirection',(0.,1.,0.)) ;
#155=DIRECTION('Vector Direction',(0.,1.,0.)) ;
#162=DIRECTION('Vector Direction',(0.,0.,1.)) ;
#169=DIRECTION('Vector Direction',(0.,1.,0.)) ;
#181=DIRECTION('Axis2P3D Direction',(0.,0.,1.)) ;
#182=DIRECTION('Axis2P3D XDirection',(1.,0.,0.)) ;
#185=DIRECTION('Vector Direction',(0.,0.,1.)) ;
#230=DIRECTION('Axis2P3D Direction',(0.,0.,1.)) ;
#231=DIRECTION('Axis2P3D XDirection',(1.,0.,0.)) ;
#242=DIRECTION('Axis2P3D Direction',(0.,0.,1.)) ;
#243=DIRECTION('Axis2P3D XDirection',(1.,0.,0.)) ;
#257=DIRECTION('Axis2P3D Direction',(0.,0.,1.)) ;
#258=DIRECTION('Axis2P3D XDirection',(1.,0.,0.)) ;
#47=AXIS2_PLACEMENT_3D(' ',#46,$,$) ;
#54=AXIS2_PLACEMENT_3D('Plane Axis2P3D',#51,#52,#53) ;
#94=AXIS2_PLACEMENT_3D('Ellipse Axis2P3D',#91,#92,#93) ;
#152=AXIS2_PLACEMENT_3D('Plane Axis2P3D',#149,#150,#151) ;
#183=AXIS2_PLACEMENT_3D('Ellipse Axis2P3D',#180,#181,#182) ;
#232=AXIS2_PLACEMENT_3D('Plane Axis2P3D',#229,#230,#231) ;
#244=AXIS2_PLACEMENT_3D('Plane Axis2P3D',#241,#242,#243) ;
#259=AXIS2_PLACEMENT_3D('Absolute Axis System',#256,#257,#258) ;
#40=PRODUCT_DEFINITION_SHAPE(' ',' ',#14) ;
#31=APPROVAL_PERSON_ORGANIZATION(#25,#21,#19) ;
#25=PERSON_AND_ORGANIZATION(#22,#23) ;
#22=PERSON(' ',' ',' ',$,$,$) ;
#23=ORGANIZATION(' ',' ',' ') ;
#21=APPROVAL(#20,' ') ;
#20=APPROVAL_STATUS('not_yet_approved') ;
#19=APPROVAL_ROLE('APPROVER') ;
#13=DATE_AND_TIME(#11,#12) ;
#12=LOCAL_TIME(22,54,11.,#10) ;
#10=COORDINATED_UNIVERSAL_TIME_OFFSET(0,0,.AHEAD.) ;
#85=ORIENTED_EDGE('',*,*,#64,.F.) ;
#86=ORIENTED_EDGE('',*,*,#71,.T.) ;
#87=ORIENTED_EDGE('',*,*,#78,.T.) ;
#88=ORIENTED_EDGE('',*,*,#83,.F.) ;
#143=ORIENTED_EDGE('',*,*,#78,.F.) ;
#144=ORIENTED_EDGE('',*,*,#117,.T.) ;
#145=ORIENTED_EDGE('',*,*,#124,.T.) ;
#146=ORIENTED_EDGE('',*,*,#141,.F.) ;
#174=ORIENTED_EDGE('',*,*,#124,.F.) ;
#175=ORIENTED_EDGE('',*,*,#160,.T.) ;
#176=ORIENTED_EDGE('',*,*,#167,.T.) ;
#177=ORIENTED_EDGE('',*,*,#172,.F.) ;
#223=ORIENTED_EDGE('',*,*,#167,.F.) ;
#224=ORIENTED_EDGE('',*,*,#204,.T.) ;
#225=ORIENTED_EDGE('',*,*,#64,.T.) ;
#226=ORIENTED_EDGE('',*,*,#221,.F.) ;
#235=ORIENTED_EDGE('',*,*,#204,.F.) ;
#236=ORIENTED_EDGE('',*,*,#160,.F.) ;
#237=ORIENTED_EDGE('',*,*,#117,.F.) ;
#238=ORIENTED_EDGE('',*,*,#71,.F.) ;
#247=ORIENTED_EDGE('',*,*,#83,.T.) ;
#248=ORIENTED_EDGE('',*,*,#141,.T.) ;
#249=ORIENTED_EDGE('',*,*,#172,.T.) ;
#250=ORIENTED_EDGE('',*,*,#221,.T.) ;
#50=CLOSED_SHELL('Closed Shell',(#90,#148,#179,#228,#240,#252)) ;
#58=VECTOR('Line Direction',#57,1.) ;
#67=VECTOR('Line Direction',#66,1.) ;
#74=VECTOR('Line Direction',#73,1.) ;
#81=VECTOR('Line Direction',#80,1.) ;
#97=VECTOR('Extrusion Surface Vector',#96,1.) ;
#120=VECTOR('Line Direction',#119,1.) ;
#156=VECTOR('Line Direction',#155,1.) ;
#163=VECTOR('Line Direction',#162,1.) ;
#170=VECTOR('Line Direction',#169,1.) ;
#186=VECTOR('Extrusion Surface Vector',#185,1.) ;
#254=ADVANCED_BREP_SHAPE_REPRESENTATION('NONE',(#253),#45) ;
#48=SHAPE_REPRESENTATION(' ',(#47),#45) ;
#90=ADVANCED_FACE('PartBody',(#89),#55,.T.) ;
#148=ADVANCED_FACE('PartBody',(#147),#98,.T.) ;
#179=ADVANCED_FACE('PartBody',(#178),#153,.F.) ;
#228=ADVANCED_FACE('PartBody',(#227),#187,.F.) ;
#240=ADVANCED_FACE('PartBody',(#239),#233,.F.) ;
#252=ADVANCED_FACE('PartBody',(#251),#245,.T.) ;
#4=APPLICATION_PROTOCOL_DEFINITION('international standard','config_control_design',1994,#1) ;
#32=APPROVAL_DATE_TIME(#13,#21) ;
#99=B_SPLINE_CURVE_WITH_KNOTS('',5,(#100,#101,#102,#103,#104,#105,#106,#107,#108,#109,#110,#111,#112,#113,#114),.UNSPECIFIED.,.F.,.U.,(6,3,3,3,6),(0.,1671.85609695,3343.7121939,5015.56829084,6687.42438779),.UNSPECIFIED.) ;
#125=B_SPLINE_CURVE_WITH_KNOTS('',5,(#126,#127,#128,#129,#130,#131,#132,#133,#134,#135,#136,#137,#138,#139,#140),.UNSPECIFIED.,.F.,.U.,(6,3,3,3,6),(0.,1671.85609695,3343.7121939,5015.56829084,6687.42438779),.UNSPECIFIED.) ;
#188=B_SPLINE_CURVE_WITH_KNOTS('',5,(#189,#190,#191,#192,#193,#194,#195,#196,#197,#198,#199,#200,#201,#202,#203),.UNSPECIFIED.,.F.,.U.,(6,3,3,3,6),(0.,878.10184138,1756.20368276,2634.30552414,3512.40736552),.UNSPECIFIED.) ;
#205=B_SPLINE_CURVE_WITH_KNOTS('',5,(#206,#207,#208,#209,#210,#211,#212,#213,#214,#215,#216,#217,#218,#219,#220),.UNSPECIFIED.,.F.,.U.,(6,3,3,3,6),(0.,878.10184138,1756.20368276,2634.30552414,3512.40736552),.UNSPECIFIED.) ;
#253=MANIFOLD_SOLID_BREP('PartBody',#50) ;
#11=CALENDAR_DATE(2016,12,9) ;
#30=CC_DESIGN_APPROVAL(#21,(#16,#6,#14)) ;
#18=CC_DESIGN_DATE_AND_TIME_ASSIGNMENT(#13,#17,(#16)) ;
#29=CC_DESIGN_DATE_AND_TIME_ASSIGNMENT(#13,#28,(#14)) ;
#17=DATE_TIME_ROLE('classification_date') ;
#28=DATE_TIME_ROLE('creation_date') ;
#27=CC_DESIGN_PERSON_AND_ORGANIZATION_ASSIGNMENT(#25,#26,(#16)) ;
#33=CC_DESIGN_PERSON_AND_ORGANIZATION_ASSIGNMENT(#25,#34,(#6)) ;
#35=CC_DESIGN_PERSON_AND_ORGANIZATION_ASSIGNMENT(#25,#36,(#6,#14)) ;
#37=CC_DESIGN_PERSON_AND_ORGANIZATION_ASSIGNMENT(#25,#38,(#5)) ;
#26=PERSON_AND_ORGANIZATION_ROLE('classification_officer') ;
#34=PERSON_AND_ORGANIZATION_ROLE('design_supplier') ;
#36=PERSON_AND_ORGANIZATION_ROLE('creator') ;
#38=PERSON_AND_ORGANIZATION_ROLE('design_owner') ;
#39=CC_DESIGN_SECURITY_CLASSIFICATION(#16,(#6)) ;
#255=SHAPE_REPRESENTATION_RELATIONSHIP(' ',' ',#48,#254) ;
#3=DESIGN_CONTEXT(' ',#1,'design') ;
#64=EDGE_CURVE('',#61,#63,#59,.T.) ;
#71=EDGE_CURVE('',#61,#70,#68,.T.) ;
#78=EDGE_CURVE('',#70,#77,#75,.T.) ;
#83=EDGE_CURVE('',#63,#77,#82,.T.) ;
#117=EDGE_CURVE('',#70,#116,#99,.T.) ;
#124=EDGE_CURVE('',#116,#123,#121,.T.) ;
#141=EDGE_CURVE('',#77,#123,#125,.T.) ;
#160=EDGE_CURVE('',#116,#159,#157,.F.) ;
#167=EDGE_CURVE('',#159,#166,#164,.T.) ;
#172=EDGE_CURVE('',#123,#166,#171,.F.) ;
#204=EDGE_CURVE('',#159,#61,#188,.F.) ;
#221=EDGE_CURVE('',#166,#63,#205,.F.) ;
#84=EDGE_LOOP('',(#85,#86,#87,#88)) ;
#142=EDGE_LOOP('',(#143,#144,#145,#146)) ;
#173=EDGE_LOOP('',(#174,#175,#176,#177)) ;
#222=EDGE_LOOP('',(#223,#224,#225,#226)) ;
#234=EDGE_LOOP('',(#235,#236,#237,#238)) ;
#246=EDGE_LOOP('',(#247,#248,#249,#250)) ;
#95=ELLIPSE('Ellipse',#94,3250.,2750.) ;
#184=ELLIPSE('Ellipse',#183,2000.,1000.) ;
#89=FACE_OUTER_BOUND('',#84,.T.) ;
#147=FACE_OUTER_BOUND('',#142,.T.) ;
#178=FACE_OUTER_BOUND('',#173,.T.) ;
#227=FACE_OUTER_BOUND('',#222,.T.) ;
#239=FACE_OUTER_BOUND('',#234,.T.) ;
#251=FACE_OUTER_BOUND('',#246,.T.) ;
#44=UNCERTAINTY_MEASURE_WITH_UNIT(LENGTH_MEASURE(0.005),#41,'distance_accuracy_value','CONFUSED CURVE UNCERTAINTY') ;
#59=LINE('Line',#56,#58) ;
#68=LINE('Line',#65,#67) ;
#75=LINE('Line',#72,#74) ;
#82=LINE('Line',#79,#81) ;
#121=LINE('Line',#118,#120) ;
#157=LINE('Line',#154,#156) ;
#164=LINE('Line',#161,#163) ;
#171=LINE('Line',#168,#170) ;
#2=MECHANICAL_CONTEXT(' ',#1,'mechanical') ;
#24=PERSONAL_ADDRESS(' ',' ',' ',' ',' ',' ',' ',' ',' ',' ',' ',' ',(#22),' ') ;
#55=PLANE('',#54) ;
#153=PLANE('',#152) ;
#233=PLANE('',#232) ;
#245=PLANE('',#244) ;
#7=PRODUCT_CATEGORY('part',$) ;
#9=PRODUCT_CATEGORY_RELATIONSHIP(' ',' ',#7,#8) ;
#6=PRODUCT_DEFINITION_FORMATION_WITH_SPECIFIED_SOURCE('',' ',#5,.NOT_KNOWN.) ;
#8=PRODUCT_RELATED_PRODUCT_CATEGORY('detail',$,(#5)) ;
#49=SHAPE_DEFINITION_REPRESENTATION(#40,#48) ;
#98=SURFACE_OF_LINEAR_EXTRUSION('generated tabulated cylinder',#95,#97) ;
#187=SURFACE_OF_LINEAR_EXTRUSION('generated tabulated cylinder',#184,#186) ;
#61=VERTEX_POINT('',#60) ;
#63=VERTEX_POINT('',#62) ;
#70=VERTEX_POINT('',#69) ;
#77=VERTEX_POINT('',#76) ;
#116=VERTEX_POINT('',#115) ;
#123=VERTEX_POINT('',#122) ;
#159=VERTEX_POINT('',#158) ;
#166=VERTEX_POINT('',#165) ;
#41=(LENGTH_UNIT()NAMED_UNIT(*)SI_UNIT(.MILLI.,.METRE.)) ;
#42=(NAMED_UNIT(*)PLANE_ANGLE_UNIT()SI_UNIT($,.RADIAN.)) ;
#43=(NAMED_UNIT(*)SI_UNIT($,.STERADIAN.)SOLID_ANGLE_UNIT()) ;
#45=(GEOMETRIC_REPRESENTATION_CONTEXT(3)GLOBAL_UNCERTAINTY_ASSIGNED_CONTEXT((#44))GLOBAL_UNIT_ASSIGNED_CONTEXT((#41,#42,#43))REPRESENTATION_CONTEXT(' ',' ')) ;
ENDSEC;
END-ISO-10303-21;
